windows xp WTF is this - Techist - Tech Forum

Go Back   Techist - Tech Forum > Computer Software > Microsoft Windows and Software
Click Here to Login
Closed Thread
 
Thread Tools Display Modes
 
Old 08-09-2005, 04:45 PM   #1 (permalink)
Junior Techie
 
Join Date: May 2005
Posts: 52
Send a message via AIM to Riff-Raff
Default windows xp WTF is this

http://img222.imageshack.us/my.php?image=laptop5xn.jpg

Just installed
__________________

__________________
-----------------------------------------------------
----0000---0000-----------00000-----00000----00000-
---0 ------0---0-----------0---0-----0---------0----0
--0---000--0---0-----------00000-----00000----0-----0
--0-----0--0---0-----------0----------0--------0-----0
---00000---0000-----------0----------00000----00000
Riff-Raff is offline  
Old 08-09-2005, 04:59 PM   #2 (permalink)
Ultra Techie
 
Join Date: Jul 2005
Posts: 813
Default

Can hardly read it, are you just trying to log onto XP?
__________________

__________________
Associates Degree in IS

A+ Certified

Studying for Network+
BASSMASTER is offline  
Old 08-09-2005, 05:02 PM   #3 (permalink)
Junior Techie
 
Join Date: May 2005
Posts: 52
Send a message via AIM to Riff-Raff
Default

im tryin to log on it says that i cannot logon due to domain already used or sumthin
__________________
-----------------------------------------------------
----0000---0000-----------00000-----00000----00000-
---0 ------0---0-----------0---0-----0---------0----0
--0---000--0---0-----------00000-----00000----0-----0
--0-----0--0---0-----------0----------0--------0-----0
---00000---0000-----------0----------00000----00000
Riff-Raff is offline  
Old 08-09-2005, 05:06 PM   #4 (permalink)
Ultra Techie
 
Join Date: Jul 2005
Posts: 813
Default

did you join your system to a domain?

Can you get me the exact message being shown?
__________________
Associates Degree in IS

A+ Certified

Studying for Network+
BASSMASTER is offline  
Old 08-09-2005, 05:20 PM   #5 (permalink)
Wizard Techie
 
Join Date: Jun 2005
Posts: 3,339
Default

Why didn't you just use "workgroup". Anyways can you give us the full error message?
__________________
<form action=\"http://www.srsyo.org/tfsearch.php\" method=\"get\">
<input type=\"text\" name=\"search\"> <input type=\"submit\" name=\"submit\" value=\"Search TF before you post!\"></form>
Vista Discussion | 64 Bit Discussion |Microsoft Homepage | Yo Linux | Paul Thurrott | Fire Fox | Thunder Bird | Image Shack | Photo Bucket | Put File | Anti-Spyware | MS Anti-Spyware | Trillian | Anti-Virus | On Line Virus Scan
Tyler1989 is offline  
Old 08-09-2005, 05:24 PM   #6 (permalink)
Junior Techie
 
Join Date: May 2005
Posts: 52
Send a message via AIM to Riff-Raff
Default

the system cannot log u on due to the following eror:

The specified Domain either does not exist or could not be contacted.

PLease try again or consult your system admin.
__________________
-----------------------------------------------------
----0000---0000-----------00000-----00000----00000-
---0 ------0---0-----------0---0-----0---------0----0
--0---000--0---0-----------00000-----00000----0-----0
--0-----0--0---0-----------0----------0--------0-----0
---00000---0000-----------0----------00000----00000
Riff-Raff is offline  
Old 08-09-2005, 05:25 PM   #7 (permalink)
Field Engineer
 
SHAWN's Avatar
 
Join Date: Nov 2004
Location: Long Island, NY
Posts: 4,697
Send a message via AIM to SHAWN
Default

Quote:
Originally posted by BASSMASTER
did you join your system to a domain?

__________________
A+, Network + , HP Certified Tech and MCP

Specs: AMD Phenom II X6 1095T, Asus M477TD, 8GB GSkill Ripjaws DDR3 1600 7-8-7-24 1T, 128GB Crucial M4 SSD, ATi HD4650, W7, 27" HL272 Monitor
SHAWN is offline  
Old 08-09-2005, 05:26 PM   #8 (permalink)
Junior Techie
 
Join Date: May 2005
Posts: 52
Send a message via AIM to Riff-Raff
Default

what is that and how do i know
__________________
-----------------------------------------------------
----0000---0000-----------00000-----00000----00000-
---0 ------0---0-----------0---0-----0---------0----0
--0---000--0---0-----------00000-----00000----0-----0
--0-----0--0---0-----------0----------0--------0-----0
---00000---0000-----------0----------00000----00000
Riff-Raff is offline  
Old 08-09-2005, 05:50 PM   #9 (permalink)
Ultra Techie
 
Join Date: Jul 2005
Posts: 813
Default

Your trying to log into a domain. Do you have to hit ctrl + alt + delete at your login screen now?
__________________
Associates Degree in IS

A+ Certified

Studying for Network+
BASSMASTER is offline  
Old 08-09-2005, 06:42 PM   #10 (permalink)
Junior Techie
 
Join Date: May 2005
Posts: 52
Send a message via AIM to Riff-Raff
Default

if i push that it brings to me to anouther logon menue and i still get that error please what should i do
__________________

__________________
-----------------------------------------------------
----0000---0000-----------00000-----00000----00000-
---0 ------0---0-----------0---0-----0---------0----0
--0---000--0---0-----------00000-----00000----0-----0
--0-----0--0---0-----------0----------0--------0-----0
---00000---0000-----------0----------00000----00000
Riff-Raff is offline  
Closed Thread

Thread Tools
Display Modes

Posting Rules
You may not post new threads
You may not post replies
You may not post attachments
You may not edit your posts

BB code is On
Smilies are On
[IMG] code is On
HTML code is Off
Trackbacks are On
Pingbacks are On
Refbacks are Off




Copyright 2002- Social Knowledge, LLC All Rights Reserved.

All times are GMT -5. The time now is 11:18 PM.


Powered by vBulletin® Version 3.8.8 Beta 1
Copyright ©2000 - 2017, vBulletin Solutions, Inc.